Linkin Park - Meteora

Скачать - Аккорды - Linkin Park - Meteora

Don't Stay
Intro:
D#|-----------------------------------|
A#|-----------------------------------|
F#|-----------------------------------|
C#|-6-6-6-6--2--4-4-4--7--6-----------|
G#|-4-4-4-6--2--4-4-4--7--6-----------|
C#|-6-6-6-6--2--4-4-4--7--6-----------|
D#|----------------------------------|
A#|----------------------------------|
F#|----------------------------------|
C#|-6-6-6-6--2--0-0-0-0-0------------|
G#|-4-4-4-6--2--0-0-0-0-0------------|
C#|-6-6-6-6--2--0-0-0-0-0------------|
Chorus
D#|------------------------------|
A#|------------------------------|
F#|------------------------------|
C#|-6-6--7--9--4--6--2--0--------|
G#|-4-6--7--9--4--6--2--0--------|
C#|-6-6--7--9--4--6--2--0--------|
Bridge
D#|---------------------------------------------------|
A#|----------------12-12-12-12-12-12-15---------------|
F#|----------------x--x--x--x--x--x--x----------------|
C#|-6-6-6-6--7-7---9--9--9--9--9--9--12---------------|
G#|-4-4-4-4--5-5--------------------------------------|
C#|-6-6-6-6--7-7--------------------------------------|
D#|------------------------------------------------------|
A#|------------------------------------------------------|
F#|------------------------------------------------------|
C#|-6-6-6-6--7-7--0-0-0-0-0-0-0-0-0-0-0-0....------------|
G#|-4-4-4-4--5-5--0-0-0-0-0-0-0-0-0-0-0-0....------------|
C#|-6-6-6-6--7-7--0-0-0-0-0-0-0-0-0-0-0-0....------------|
Faint
Gt. 1:Intro and Chorus
Eb|-----------------------------------
Bb|-----------------------------------
Gb|-----------------------------------
Db|-0-0--7--5--5-5--7--3------------------------
Ab|-0-0--7--5--5-5--7--3-----------------------
Db|-0-0--7--5--5-5--7--3-----------------------
Gt. 2: Intro and Chorus
|play at start|
|of intro |
Eb|-------------|
Bb|-------------|
Gb|--7-7-7-7----|
Db|--X-X-X-X----|
Ab|--5-5-5-5----|
Db|-------------|
Eb|------------------------------------------
Bb|-------------------|----------------------
Gb|-7-7-7/14-14
-12-|-12-12-12/14-14-10-
Db|-X-X-X/X--X-\X--X--|-X--X--X-/X--X-\X--X--
Ab|-5-5-5/12-12-10-|-10-10-10/12-12\8--8--
Db|-------------------|----------------------
Both guitars:Verse
Eb|-----------------------------------
Bb|-----------------------------------
Gb|-----------------------------------
Db|-2-2--2-2--2-2--7-7--5-5-----------
Ab|-2-2--2-2--2-2--7-7--5-5-----------
Db|-2-2--2-2--2-2--7-7--5-5-----------
Both guitars:Interlude
Eb|-----------------------------------
Bb|-----------------------------------
Gb|-----------------------------------
Db|-0-7-5-2-3-2------------------------------
Ab|-0-7-5-2-3-2-----------------------------
Db|-0-7-5-2-3-2-----------------------------

Somewhere I Belong
Tuning: half step down, Drop-D.
(Low to High) Db Ab Db Gb Bb Eb
a.k.a. C# G# C# F# A# D#
Intro
Gtr 1 (clean w/ a backward loop effect)
(Rhythm Fig. 1)
Eb||--------------------------|
Bb||o-(3)--------------------o|
Gb||---4-----4-----6-----4----| repeat 2x
Db||---4-----5-----7----------|
Ab||o--------------------5---o|
Db||--------------------------|
Gtr 2 (clean)
(Rhy. Fig. 2), Gtr 1 plays Fig. 1 two times
|---------5-----------5----|
|o-5-7--7---7--5-7--7---7-o|
|--------------------------| 4x
|--------------------------|
|o------------------------o|
|--------------------------|
Gtr 3 (w/ distortion) on last repeat
|--------------------------|
|--------------------------|
|-4+=======================|
|-x+===volume swell========|
|-2+=======================|
|--------------------------|
Gtr 3 1.__________________ 2.___________________
|---------------------|--------------------|---------------------|
|o-------------------o|--------------------|---------------------|
|---------------------|--------------------|---------------------|
|-4-4-4-4-4-0-0-0-0-0-|5-5-5-5-5-2-2-2-2-2-|-7-7-7-7-7-2-2-2-2-2-|
|o2-2-2-2-2-0-0-0-0-0o|5-5-5-5-5-2-2-2-2-2-|-7-7-7-7-7-2-2-2-2-2-|
|-4-4-4-4-4-0-0-0-0-0-|5-5-5-5-5-2-2-2-2-2-|-7-7-7-7-7-2-2-2-2-2-|
Gtr 4 (w/ dist.) 1.__________________ 2._________________(Fill 1)
|---------------------|--------------------|---------------------|---|
|o-------------------o|--------------------|---------------------|---|
|-8-8-8-8-8-9-9-9-9-9-|1111111111-9-9-9-9-9|-6-6-6-6-6-4-4-4-4-4-|-4=|
|-x-x-x-x-x-x-x-x-x-x-|x-x-x-x-x--x-x-x-x-x|-x-x-x-x-x-x-x-x-x-x-|-x-|
|o6-6-6-6-6-7-7-7-7-7o|9-9-9-9-9--7-7-7-7-7|-4-4-4-4-4-2-2-2-2-2-|-2=|
|---------------------|--------------------|---------------------|---|
Pre-Verse
Gtr 1 w/ Fig. 1 one time
Gtr 4 w/ Fill 1
Verse 1
Gtr 1 w/ Fig 1 four times
Gtr 2 w/ Fig 2 eight times
Pre-Chorus
Gtr 3 (Fill 2)
|-------|-------|
|-------|-------|
|-------|-------| [*all natural harmonics] (lay finger over fretbar w/o pushing down)
|-[44444|44444]-| d = downstroke
|-[44444|44444]-| u = upstroke
|-[44444|44444]-|
dudud ududu
*Note: These harmonics can also be performed at the 9th fret*
Chorus (Rhy. Fig. 3)
Gtr 3 1.,2.,3.____________ 4.___________________
|---------------------|--------------------|---------------------|
|o-------------------o|--------------------|---------------------|
|---------------------|--------------------|---------------------|
|-4-4-4-4-4-0-0-0-0-0-|5-5-5-5-5-2-2-2-2-2-|-7-7-7-7-7-2-2-2-2-2-|
|o2-2-2-2-2-0-0-0-0-0o|5-5-5-5-5-2-2-2-2-2-|-7-7-7-7-7-2-2-2-2-2-|
|-4-4-4-4-4-0-0-0-0-0-|5-5-5-5-5-2-2-2-2-2-|-7-7-7-7-7-2-2-2-2-2-|
Gtr 4 1.,2.,3.____________ 4.___________________
|---------------------|--------------------|---------------------|
|o-------------------o|--------------------|---------------------|
|-8-8-8-8-8-9-9-9-9-9-|1111111111-9-9-9-9-9|-6-6-6-6-6-4-4-4-4-4-|
|-x-x-x-x-x-x-x-x-x-x-|x-x-x-x-x--x-x-x-x-x|-x-x-x-x-x-x-x-x-x-x-|
|o6-6-6-6-6-7-7-7-7-7o|9-9-9-9-9--7-7-7-7-7|-4-4-4-4-4-2-2-2-2-2-|
|---------------------|--------------------|---------------------|
Verse 2
Gtr 1 w/ Fig 1 four times
Gtr 2 w/ Fig 2 eight times
Pre-Chorus
Gtr 3 w/ half of Fill 2
Chorus
Gtr 3 and Gtr 4 w/ Fig. 3
Bridge
Gtr 3 and Gtr 4 (Rhy. Fig. 4)
|------------------------------------------------------------|
|o----------------------------------------------------------o|
|--------11-11----------11-11----------11-11----------6/7*-| 2x
|--9---9-x--x-----5---5-x--x-----7---7-x--x-----2---2-x------|
|o-9---9-9--9-----5---5-9--9-----7---7-9--9-----2---2-4/5*o|
|--9---9----------5---5----------7---7----------2---2--------|
*slide without restrumming
|-----------------------------------------------------------|
|-----------------------------------------------------------|
|-------11-11----------14-14----------11-11----------6/7*-|
|-9---9-x--x-----5---5-x--x-----7---7-x--x-----2---2-x------|
|-9---9-9--9-----5---5-12-12----7---7-9--9-----2---2-4/5*-|
|-9---9----------5---5----------7---7----------2---2--------|
Gtr 3 w/ Fig. 4 one time ending with Fill 1 over Gtr 1 w/ Fig. 1
Gtr 3 w/ Fill 2
Outro Chorus
Gtr 3 and Gtr 4 w/ Fig. 3 twice
Outro
Gtr 3 3x
|----------------------------|---------------|||
|o--------------------------o|---------------|||
|----------------------------|---------------|||
|--4-4-4-4-4-4-4--[4-4-4-4]--|-4-4-4-4-4-4-4-|||
|o-2-2-2-2-2-2-2--[4-4-4-4]-o|-2-2-2-2-2-2-2-|||
|--4-4-4-4-4-4-4--[4-4-4-4]--|-4-4-4-4-4-4-4-|||
d u d u

Lying From You
Half step down tune
Intro
e|| ---------------------------------.||
B|| ---------------------------------.||
G||.-----------5--7-6-5--8-7-6-5-----.|| 2 times
D||.-----------5--7-6-5--8-7-6-5--4--.||
A|| -----------3--5-4-3--6-5-4-3--4--.||
E|| -x-x-x-x---3--5-4-3--6-5-4-3--2--.||
Main
(When I pretend,
everything is what I want it be...)
3 times last time
e|| ---------------------------------|--------------------------------- ||
B|| ---------------------------------|--------------------------------- ||
G||.--7-7-------------------5-5-5-5--|--7-7----------------------------.||
D||.--7-7-----------3-3-----5-5-5-5--|--7-7------------3-3-3---5-5-5-5-.||
A|| --5-5-----------3-3-----3-3-3-3--|--5-5------------3-3-3---5-5-5-5- ||
E|| --5-5-----------1-1-----3-3-3-3--|--5-5------------1-1-1---3-3-3-3- ||
Chorus
(You...I wanna be close beside so let me go...)
2 times
e|| ---------------------------------|--------------------------------- ||
B|| ---------------------------------|--------------------------------- ||
G||.--7-7----------------------5-5-5-|--3-3----------------------5-5-5-.||
D||.--7-7----------------3-----5-5-5-|--3-3---------------5------5-5-5-.||
A|| --5-5--7777-3333-55--3-----3-3-3-|--1-1--7777-3333-55-5------3-3-3- ||
E|| --5-5----------------1-----3-3-3-|--1-1---------------3------3-3-3- ||
Bridge
(This isn_t what I wanted to be,
I never thought what I said would have you running from me...)
8 times
e|| ------------------------.||
B|| ------------------------.||
G||.--5--7-6-5--8-7-6-5-----.||
D||.--5--7-6-5--8-7-6-5--4--.||
A|| --3--5-4-3--6-5-4-3--4--.||
E|| --3--5-4-3--6-5-4-3--2--.||
Chorus

Hit The Floor
Verse
Eb|----------------|
Bb|----------------|
Gb|----------------|
Db|----------------|
Ab|----------------|
Db|-0-4-0-1--1-1-0-|
Eb|-----------|
Bb|-----------|
Gb|-----------|
Db|-0-8-8-8-7-|
Ab|-0-8-8-8-7-|
Db|-0-8-8-8-7-|
Chorus
Eb|----------------|-----------|
Bb|----------------|-----------|
Gb|----------------|-----------|
Db|-0-4-0-1--1-1-0-|-0-8-8-8-7-|
Ab|-0-4-0-1--1-1-0-|-0-8-8-8-7-|
Db|-0-4-0-1--1-1-0-|-0-8-8-8-7-|
Bridge
Eb|-----------|-----------|
Bb|-----------|-----------|
Gb|-----------|-----------|
Db|-0-0-0-0-3-|-0-0-0-0-1-|
Ab|-0-0-0-0-3-|-0-0-0-0-1-|
Db|-0-0-0-0-3-|-0-0-0-0-1-|

Easier To Run
x = Mute note
Intro
Eb|---------------------------------------|
Bb|----0x-0x------8----8x-7x------10------|
Gb|-----------0x--------------0x----------| 4x
Db|---------------------------------------|
Ab|---------------------------------------|
Db|---------------------------------------|
Chorus
Eb|------------------------------------|
Bb|------------------------------------|
Gb|------------------------------------| 2x
Db|----2-------5-------7-------4-------|
Ab|----2-------5-------7-------4-------|
Db|----2-------5-------7-------4-------|
Verse 1
Eb|---------------------------------------|
Bb|----0x-0x------8----8x-7x------10------|
Gb|-----------0x--------------0x----------| 9x
Db|---------------------------------------|
Ab|---------------------------------------|
Db|---------------------------------------|
Chorus
Eb|------------------------------------|
Bb|------------------------------------|
Gb|------------------------------------| 2x
Db|----2-------5-------7-------4-------|
Ab|----2-------5-------7-------4-------|
Db|----2-------5-------7-------4-------|
Verse 2
Eb|---------------------------------------|
Bb|----0x-0x------8----8x-7x------10------|
Gb|-----------0x--------------0x----------| 8x
Db|---------------------------------------|
Ab|---------------------------------------|
Db|---------------------------------------|
Bridge
Eb|-------------------------------------|
Bb|-------------------------------------|
Gb|-------------------------------------|
Db|----5-------7-------9-------4--------|
Ab|----5-------7-------9-------4--------|
Db|----5-------7-------9-------4--------|
Eb|-------------------------------------|
Bb|-------------------------------------|
Gb|-------------------------------------|
Db|----5-------7-------7-------7--------|
Ab|----5-------7-------7-------7--------|
Db|----5-------7-------7-------7--------|
Chorus
Eb|------------------------------------|
Bb|------------------------------------|
Gb|------------------------------------| 4x
Db|----2-------5-------7-------4-------|
Ab|----2-------5-------7-------4-------|
Db|----2-------5-------7-------4-------|
Eb|----------------------------------------------------------|
Bb|----------------------------------------------------------|
Gb|----11-11-11-11-11-11-11-11-11-11-11-11-11-11-11-11-------|
Db|-----x--x--x--x--x--x--x--x--x--x--x--x--x--x--x--x-------|
Ab|-----9--9--9--9--9--9--9--9--9--9--9--9--9--9--9--9-------|
Db|----------------------------------------------------------|
Eb|---------|
Bb|---------|
Gb|----7----|
Db|----x----|
Ab|----5----|
Db|---------|

Faint
Intro
Eb|-----------|
Bb|-----------|
Gb|--7-7-7-7--|
Db|--X-X-X-X--|
Ab|--5-5-5-5--|
Db|-----------|
Chorus (guitar 1)
Eb|-------------------|----------------------|
Bb|-------------------|----------------------|
Gb|-7-7-7/14-14
-12-|-12-12-12/14-14-10-|
Db|-X-X-X/X--X-\X--X--|-X--X--X-/X--X-\X--X--|
Ab|-5-5-5/12-12-10-|-10-10-10/12-12\8--8--|
Db|-------------------|----------------------|
Chorus (guitar 2)
Eb|-------------------|----------------------|
Bb|-------------------|----------------------|
Gb|-------------------|----------------------|
Db|-0-0-0-5--5---3--3-|-3--3--3-5--5---1--1--|
Ab|-0-0-0-5--5---3--3-|-3--3--3-5--5---1--1--|
Db|-0-0-0-5--5---3--3-|-3--3--3-5--5---1--1--|
Eb|-------------------|----------------------|
Bb|-------------------|----------------------|
Gb|-------------------|----------------------|
Db|-0-0-0-7--7---5--5-|-5--5--5-7--7---3--3--|
Ab|-0-0-0-7--7---5--5-|-5--5--5-7--7---3--3--|
Db|-0-0-0-7--7---5--5-|-5--5--5-7--7---3--3--|
Verse
Eb|------|------|--------|---------|------|----------|
Bb|------|------|--------|---------|------|----------|
Gb|------|------|--------|---------|------|-7-7-7-7--|
Db|-0----|-0----|-0-0----|-5-5-----|-7----|-X-X-X-X--|
Ab|-0----|-0----|-0-0----|-5-5-----|-7----|-5-5-5-5--|
Db|-0----|-0----|-0-0----|-5-5-----|-7----|----------|
Bridge (guitar 1)
Eb|-----------------|--------------|
Bb|-----------------|--------------|
Gb|-------------<5>-|--------------|
Db|-0-7-5-7-8-7-----|-0-7-5-7-8-7--|
Ab|-0-7-5-7-8-7-----|-0-7-5-7-8-7--|
Db|-0-7-5-7-8-7-----|-0-7-5-7-8-7--|
Bridge (guitar 2)
Eb|-----------------|--------------|
Bb|-----------------|--------------|
Gb|-----------------|--------------|
Db|-0-7-3-2-3-2-----|-0-7-3-2-3-2--|
Ab|-0-7-3-2-3-2-----|-0-7-3-2-3-2--|
Db|-0-7-3-2-3-2-----|-0-7-3-2-3-2--|

Figure.09
intro
2 times
part 1 repeat first last
e|| ----------------------||-------------- ||------------------ ||
B|| ----------------------||-------------- ||------------------ ||
G||.--6------6------6----*||--------------.||------------------.||
D||.---------------------*||--------------.||------------------.||
A|| --4-4-7--4-4-7--4-4-7-||-4^5-4^5-4^5-- ||-4^5-5-5-5^4-5^4-- ||
E|| ----------------------||-------------- ||-4^5-5-5-5^4-5^4-- ||
part 2 2 times
e|| -------------------------------------------.||
B|| -------------------------------------------.||
G||.----6-------6-------6----------------------.||
D||.------6-------6-------6--------------------.||
A|| --4---7---4---7---4---7--4^5-5-5-5^4-5^4--- ||
E|| --4---0---4---0---4---0--4^5-5-5-5^4-5^4--- ||
main
part 1 2 times
e|| --------------------------------------------.||
B|| --------------------------------------------.||
G||.----6o-------6o------6o---------------------.||
D||.--------------------------------------------.||
A|| --4o------4o------4o------4^5-5-5-5^4-5^4--- ||
E|| --4o------4o------4o------4^5-5-5-5^4-5^4--- ||
o - mute after playing
part 2 2 times
e|| --------------------------------------------.||
B|| --------------------------------------------.||
G||.----6--------6-------6----------------------.||
D||.------6-------6-------6---------------------.||
A|| --4---7---4---7---4---7---4^5-5-5-5^4-5^4--- ||
E|| --4-------4-------4-------4^5-5-5-5^4-5^4--- ||
bridge
e|| ---------------------------- ||
B|| ---------------------------- ||
G||.----------------------------.||
D||.-------7-------7-------7----.||
A|| --4----7--4----7--4----7--4- ||
E|| --4-------4-------4-------4- ||
chorus
3 times
e|| ------------------------------------- ||
B|| ------------------------------------- ||
G||.-----------6-------------------------.||
D||.-----------6------7-------2-----4--6-.||
A|| -----------4------7-------2-----4--6- ||
E|| -----------4------5-------0-----2--4- ||
[and now...]
last time
e|| ------------------------------------- ||
B|| ------------------------------------- ||
G||.-----------6-----------------------7-.||
D||.-----------6------7-------2-----6--7-.||
A|| -----------4------7-------2-----6--5- ||
E|| -----------4------5-------0-----4--5- ||
[you become a part of me...]
...
intro part2
main
chorus
intro part1
...
second chorus
4 times
e|| --------------------------|------------------------- ||
B|| --------------------------|------------------------- ||
G||.--7--6--6--6/7/9--------|---7--6--6--6/7/9------.||
D||.--7--6--6--6/7/9--------|---7--6--6--6/7/9------.||
A|| --5--4--4--4/5/7----8---|---5--4--4--4/5/7----4- ||
E|| --5--4--4--4/5/7--------|---5--4--4--4/5/7------ ||
^ ^ ^ ^
P.M. P.M.
[Get away from me!
Give me my space back you gotta just
Go! ...]
chorus

Breaking The Habit
Intro
e--0--5-3-2-0--|-0-3-2-0--0--5-3-2-0--
B-------------o|--4-------------------
G--------------|----------------------
D-------------o|----------------------
A--------------|----------------------
E--------------|----------------------
Verse
e---------------------------
B--0--2-3-0-0--0-1-1-0-0----
G---------------------------
D---------------------------
A---------------------------
E---------------------------

Chorus
e----------------
B-0--5-3-3-5
G---------------
D---------------
A---------------
E---------------

From The Inside
Intro
Eb|--------------------------|---------------------------------------|
Bb|-3-3-3-3-3-3--------------|---------------------------------------|
Gb|-2-2-2-2-2-2--------------|---------------------------------------|
Db|-0-0-0-0-0-0--3-3-3-3-3-3-|-8-8-8-8-8-8--5-5-5-5-5-5--7-7-7-7-7-7-|
Ab|-0-0-0-0-0-0--3-3-3-3-3-3-|-8-8-8-8-8-8--5-5-5-5-5-5--7-7-7-7-7-7-|
Db|-0-0-0-0-0-0--3-3-3-3-3-3-|-8-8-8-8-8-8--5-5-5-5-5-5--7-7-7-7-7-7-|
Verse
Eb|-7---7---7---7---|-5---5---5---5---|---------|
Bb|---5---5---5---5-|---7---7---7---7-|-6---6---|
Gb|-----------------|-----------------|---7---7-|
Db|-----------------|-----------------|---------|
Ab|-----------------|-----------------|---------|
Db|-----------------|-----------------|---------|
Pre-Chorus
Eb|-------------------------|
Bb|-------------------------|
Gb|-------------------------|
Db|-<5>-<5>-<5>-<5>-<5>-<5>-|
Ab|-<5>-<5>-<5>-<5>-<5>-<5>-|
Db|-<5>-<5>-<5>-<5>-<5>-<5>-|
Bridge (part 1)
Eb|-------------|
Bb|-------------|
Gb|-------------|
Db|-0--0-0-0--0-|
Ab|-0--0-0-0--0-|
Db|-0--0-0-0--0-|
Bridge (part 2)
Eb|-------------|
Bb|-------------|
Gb|-------------|
Db|-1--1-1-1--1-|
Ab|-1--1-1-1--1-|
Db|-1--1-1-1--1-|
Bridge (part 3/guitar 1)
Eb|--------------------------|
Bb|--------------------------|
Gb|--------------------------|
Db|-0--0-0-0--0--------------|
Ab|-0--0-0-0--0--<7>-----<5>-|
Db|-0--0-0-0--0------<5>-----|
Bridge (part 3/guitar 2)
Eb|-------------|
Bb|-------------|
Gb|-------------|
Db|-0--0-0-0--0-|
Ab|-0--0-0-0--0-|
Db|-0--0-0-0--0-|

Nobody's Listening
Chorus
|---------------------------------------------------|
|---------------------------------------------------|
|---------------------------------------------------|
|-3-3--3-3---4-4--4-4---3-3--3-3---1-1---4-4--|
|-3-3--3-3---4-4--4-4---3-3--3-3---1-1---4-4--|
|-3-3--3-3---4-4--4-4---3-3--3-3---1-1---4-4--|

Numb
Intro (part 1)
D||-10-13-10-15-18-17---------|
A||---------------------------|
F||---------------------------|
C||---------------------------|
G||---------------------------|
C||---------------------------|
Intro (part 2)
D||-10-13-10-18-17-13---------|
A||---------------------------|
F||---------------------------|
C||---------------------------|
G||---------------------------|
C||---------------------------|
Verse (part 1)
D||---------------------------|
A||---------------------------|
F||---------------------------|
C||-5---1---8---3-------------|
G||-5---1---8---3-------------|
C||-5---1---8---3-------------|
Verse (part 2)
D||----10-----10-----10-----10----|
A||-------------------------------|
F||-------------------------------|
C||-5------1------8------3--------|
G||-5------1------8------3--------|
C||-5------1------8------3--------|


Пока комментариев нет