My December (2)

Скачать - Аккорды - My December (2)

Песня довольно простая...

1---------------
2---------------
3----0----0-----
4------4--------
5-7-------------
6---------------

1---------------
2---------------
3----0----0-----
4------4--------
5-5-------------
6---------------

Каждый перебор по два раза и так всю песню...

Строй гитары:

E
A
D
G
B
E


Пока комментариев нет