A Place For My Head (СОЛО)

Скачать - Аккорды - A Place For My Head (СОЛО)

A Place For My Head
основанная тема соло:

1-----------------------------------------------------------
2-----------------------------------------------------------
3-----------------------------------------------------------
4-----------8---8---9---8--6-----------------8---6---8------
5----6--6----------------------9---9--7--7------------------
6-----------------------------------------------------------

Хорошо звучит!:happy


  Разместил Bullit   22:09 30.05.2008  
под конец чё то как то не понятно
  Разместил MihalMihalich   09:51 22.07.2008  
блин чёт у мну не похоже))))
  Разместил LP{Live in Texas}Da Best   19:14 13.09.2008  
а что это такое...подскажите плззз
  Разместил g0munkul   23:15 12.04.2009  
у меня не похоже
  Разместил Йожег   11:41 17.04.2009  
чёт не получается у меня
я так играю:

4)-----------7--7--8--7--5---------------------
5)-----5--5-----------------8--8--6--6--6--6--8
  Разместил Тоха94   21:13 04.05.2009  
народ скажыте пожалуста или вирнее обясните как ети акорды играть???????????
  Разместил RO-94   18:31 07.07.2009  
обьесняю цифра что самая слева это номер струны например 4)------(четвертая струна) то что начинается провее это номер лада например4)--5--5--3--1 (на четвертой струне 5 лад затем еще раз 5 лад затем переходим на третий лад ну и в конце первый лад)
  Разместил Андрей Прохоренко   21:08 22.08.2010  
А ну щас попробую...а у мну похоже тропаль)
  Разместил Андрей Прохоренко   21:10 22.08.2010  
Кто то может обьяснить что за фигня,вкоце?
  Разместил Андрей Прохоренко   22:42 22.08.2010  
А может всё таки правильней играть так
1-----------------------------------------------------------
2-----------------------------------------------------------
3-----------------------------------------------------------
4-----------8---8---9---8--6-----------------------------8---8
5----6--6----------------------9---9--7--7--7--9---6--6---------
6-----------------------------------------------------------