Linkin Park - Hybrid Theory

Скачать - Аккорды - Linkin Park - Hybrid Theory

Papercut
Tuning: C, G, C, F

Intro/chorus
F ---------------------------
C ---------------------------
G ---------------------------
C 0-0-0-7-6-4-4-4--4-4-4----- X4

Verse
F ----------------------
C ----------------------
G ----------------------
C 0-0-0-10-10-9-8-8----- X8

Bridge
F ----------------------
C ----------------------
G ----------------------
C 5-5-6-4-4-4----------- X4

Coda
F ------------------------------------
C ------------------------------------
G ------------------------------------
C 10-10-10--10-10-12-12-12--12-12-12--

Outro
F 10-10-10--10-10-12-12-12--12-12-12-7-7-7--7-7-7-7-7-7-7---
C ----------------------------------------------------------
G ----------------------------------------------------------
C ----------------------------------------------------------

One Step Closer
4 String Bass, Tuned to Drop D and One Whole Step Down

Beginning after soft guitar [4 Times]

F ----------------------------------------
C ----------------------------------------
G -----5----------------------------------
C -0-0----8-7--3--------------------------

Beginning of singing [4 Times]

F ----------------------------------------
C ----------------------------------------
G ----------------------------------------
C -0-0----8-7-----------------------------

Next [4 Times]

F ----------------------------------------
C ----------------------------------------
G -----5----------------------------------
C -0-0----8-7--3--------------------------

Nothing on prechorus

Chorus [2 Times first chorus, 4 times next 2 chorus's played]

F ----------------------------------------
C ----------------------------------------
G ----------------------------------------
C -0-0-12-12-10-10-7-7-8-8-5-5-7-7-3-3----

On Second Chorus and Last Chorus Play this at the end
F ----------------------------------------
C ----------------------------------------
G ----------------------------------------
C -1-1-1-1-1-1-1-1------------------------

Shut up when i'm talking to you part [8 Times]

F ----------------------------------------
C ----------------------------------------
G ----------------------------------------
C -1-0----1-3-0-0--6----------------------

After 4 times of playing and 8 times of playing the above
Palm Mute a few open Low C strings

Back to Chorus

With You
Standard Tuning (B,E,A,D,G)
Intro(0:00)with a wierd overdrive type effect
G|-------|
D|-------|
A|-------|[4 Times]
E|-------|
B|--5-5--|
Chorus(0:12)
G|----------------------------------|
D|----------------------------------|
A|----------------------------------|[4 Times]
E|----------------------------------|
B|--0-0-0-0-1-0-0-0-0-0-0---16------|
Post-Chorus #1(0:22)
G|---------------------------|
D|---------------------------|
A|---------------------------|
E|--0------7-------3---------|
B|------------------------3--|
Verse(0:31-0:51) no bass
Chorus(0:51) [8 Times]
Post-Chorus #2(1:11)
G|------------------------------|
D|------------------------------|
A|------------------------------|[1 Time]
E|--0------7-------3-------10---|
B|------------------------------|
Verse(1:21-1:40) no bass
Chorus(1:40) [8 Times]
Post-Chorus #2(1:59) [2 Times]
Intro(2:19) [9 Times]with wierd overdrive type effect
Post-Chorus #2(2:31) [5 Times]
Intro(3:10) [? Times]with wierd overdrive type effect
just play and fade out like the record does

Points Of Authority
Standard Tuning(B,E,A,D,G)

This song only has two riffs the whole song, so I am not
going to mess with the time each riff starts because you
should be able to recognize the changes.

Main Riff
G|----------------------------------------------|
D|----------------------------------------------|
A|----------------------------------------------|
E|----------------------------------------------|
B|-4-4-4h5-5-2h4-4h5-2h4-4-4h5-X-4-X-2-X-5------|

Chorus Riff
G|-----------------------------|
D|-----------------------------|
A|-----------------------------|
E|-----------------------------|
B|--4------5-------4--------5--|

Crawling
Tuning: C, G, C, F

Intro/fill-in
F ---------------- X1
C ----------------
G 0--7-1--7--4-2--
C ---------------2

Chorus
F -------------------------------- X2
C --------------------------------
G --------------------------------
C 0--0-0-7--7-7-2--2-2-9--9-9

verse
F ----------- X2
C -----------
G -----------
C 0--7-2--9

F -------------
C -------------
G -------------
C 0--7-2--9-5


Tuning: C, G, C, F

Intro/fill-in
F ---------------- X1
C ----------------
G 0--7-1--7--4-2--
C ---------------2

Chorus
F -------------------------------- X2
C --------------------------------
G --------------------------------
C 0--0-0-7--7-7-2--2-2-9--9-9

verse
F ----------- X2
C -----------
G -----------
C 0--7-2--9

F -------------
C -------------
G -------------
C 0--7-2--9-5

By Myself
Standard Tuning (B,E,A,D,G)

Intro(0:01)
G|---------------|
D|---------------|
A|---------------|[4 Times]
E|--4-4----------|
B|-------3-3-3-3-|

Rest (0:10-0:28)

Verse #1(0:28)
G|---------------------|
D|---------------------|
A|---------------------|
E|----------4----------|
B|--3-3-3-3------------|
Hold the G# note(E|-4-|) for the rest of the verse

Pre-Chorus(0:38)
G|------------------|
D|------------------|
A|------------------|[4 Times]
E|-----------4-4----|
B|--3-3-3-3---------|

Chorus(0:46)
G|----------|-----------------------------|
D|----------|-----------------------------|
A|----------|-----------------------------|[4 Times]
E|----------|--4--------------------------|Last Bar
B|--3-3-3-3-|--------5-5-X-X-X-2-2-X-X-X--|Only

Verse #2(1:07)
G|---------|
D|---------|
A|---------|Let G# note ring throughout the whole verse
E|---4-----|
B|---------|

Pre-Chorus(1:25) [4 Times]

Chorus(1:34) Same as last chorus, play the first bar once and then play the second 4 Times

Rest(1:53-2:12)

Intro(2:12) [8 Times]

Chorus(2:33) Don't play the first bar this time, Play
the second bar 8 Times but skip the G# note(E|-4-|) the
first time.

In The End

A Place For My Head
Tuniung: (C#, A, D, G) - You are supposed to tune all strings down but I find it
easier to play this way..

Guitar plays for a little then:

|-----------|
|-----------|
|-----------| 4X
|----2--2---|

Verse 1:

|-------------------------------------|-----------------------------------|
|-------------------------------------|-----------------------------------| repeat
|-------------------------------------|-----------------------------------| as
|--2----2-2--2-2-2------5-5-5--7-7-7--|--2----2-2--2-2-2----5-5-5---3-3-3-| necessary


Chorus:

|-------------------------------------|
|---8-9-8-6---------------------------|repeat as necesary
|-6----------9--9--7-7-7--9--6--------|also use this at
|-------------------------------------|the “You try to take the best of me” part

Verse 2:

|-------------------------------|----------------------------------------|-----------→
----------------------|
|-------------------------------|----------------------------------------|-----------→
----------------------|
|-------------------------------|----------------------------------------|-----------→
----------------------|
|---X--X-X--X-X-X--5-5-5-7-7----|--2--2-2---2-2-2---5-5-5---3-3-3--------|--2--2-2---→
2-2-2---5-5-5--7-7-7--|

|---------------------------------|--------|--------|------|-------------------------→
-----|
|---------------------------------|--------|--------|------|-------------------------→
-----|
|---------------------------------|--------|---2----|------|-2-/-14--14--14--14--14--→
14---|
|--2--2-2--2-2-2---5-5-5---3-3-3--|----2---|--------|--2---|-------------------------→
-----|

Then Chorus.. Then:

|----------------------------------|
|----------------------------------|
|----------------------------------|
|----2-2---2-2-2---2-2-2--2-2--5---|

Forgotten
Tuning: C,G,C,F

into/pre-chorus
F --------------------------
C --------------------------
G --------------------------
C -32-2-2-2222---32-2-- (X3)

F -----------------------------------
C -----------------------------------
G -----------------------------------
C -32-2-2-2222---33-22225555-- (x1)

verse
F ------------5--------------
C ------------------------5--
G ----7-7/8-7-3---3----------
C -7----------------6-5---5--

chorus
F ------------------------------------
C ------------------------------------
G -----7/8-8-8------------------------
C -7-7---------10-10-10-9-10-10-7--
or
F -------------------------------------
C -------------------------------------
G -0-0-7\8-8-8-3-3-3-2-3-3-0---------
C -------------------------------------

'Now you've got me caught in the act'
F --------------------------
C --------------------------
G --------------------------
C -7-7-5-7-3-333-2-3-5------

ў аЁ в 2
Tuning: (C#, A, D, G)

Intro and Prechorus

|--------------------------|
|--------------------------|
|--------------------------|
|---3-2-2-2--3-3-2-2-2-----|

Verse

|----------------------------------------|
|----------------------------------------|
|------6-7-6--------------------9--------|
|---7---------10--10--10--7--5----6--7---|


Chorus

|--------------------------------------|
|--------------------------------------|
|------6-7-6---------------------------|
|---7--------10-10-10-8h10--8h10--8h10-|

Bridge

|-------------------------|
|-------------------------|
|-------------------------|
|--7-7--5-7-3-3-3-2-3-5-5-|


Пока комментариев нет