Linkin Park - Meteora

Скачать - Аккорды - Linkin Park - Meteora

Don't Stay
Tuning: EADG
Intro
G)-------------------
D)-------------------
A)-------------------
E)3-1-3-5-3-3-1-3-5-3
Verse
-----------------
-----------------
-----------------
33-1-353-33-1-353

Chorus
---------------
---------------
---------------
1-575-3-1-575-3
Fill
---------------------------
---------------------------
---------------------------
333-1-3-55778-333-1-3-55778

Outro
-----------------
-----------------
-----------------
3-1-3-75-3-1-3-75

Somewhere I Belong
Tuning: GDAE
Intro (00:11)
-------------------------------------
-------------------------------------
-11111111----------------------------
----------22222222-44444444-00000000-
(00:23)
--------------------------------------------------------------------------
--------------------------------------------------------------------------
-22222222-44444444-66666666-44444444--22222222-44444444-11111111----------
-----------------------------------------------------------------2~--------
verse(00:41)
-------------------------------------
------------------------------------- 4X
-11111111----------------------------
----------22222222-44444444-00000000-
chorus(01:04)
--------------------------------------
-------------------------------------- 2X
-22222222-44444444-66666666-44444444--
--------------------------------------
verse(01:39)
-------------------------------------
------------------------------------- 4X
-11111111----------------------------
----------22222222-44444444-00000000-
chorus(01:52)
-------------------------------------
------------------------------------- 4X
-22222222-44444444-66666666-44444444-
-------------------------------------
--------------------------------------------------------
--------------------------------------------------------
-22--44--66--44--22-44-66-441122-44-66-441122-44-66-44~-
--------------------------------------------------------
-------------------------------------
------------------------------------- 4X
-22222222-44444444-66666666-44444444-
-------------------------------------
outro:
------------------------------
------------------------------ 4X
-66666666666666---------------
------------------------------

Lying From You
Intro
G :------------------|X3|------------------
D :------------------|X3|------------------
A :------------------|X3|------------------
C#:-02221-0-3-2-1-05-|X3|-0-2221-0-3-2-1---
Verses
G :--------------------------|X3|----------------------------
D :--------------------------|X3|----------------------------
A :--------------------------|X3|----------------------------
C#:-2-2-------5-5-----00-0-0-|X3|-2-2-------5-5~-----77-7-7~-
1st Chorus
G :-----------------------------------------------------
D :-----------------------------------------------------
A :---------------------------2-2-----------------------
C#:-2-2-------5-5-55-5-00-0-0-----------7-7-77-7-00-0-0-
G :-----------------------------------------------------
D :-----------------------------------------------------
A :---------------------------2-2----2/4----------------
C#:-2-2-----0/5-5-55-5-00-0-0------------7-7-77-7-00----
2nd Chorus & 3rd Chorus
G :-----------------------------------------------------
D :-----------------------------------------------------
A :---------------------------2-2-----------------------
C#:-2-2-------5-5-55-5-00-0-0-----------7-7-77-7-00-0-0-
G :-------------------------------------------------------------------
D :-------------------------------------------------------------------
A :---------------------------2-2----2/4------------------------------
C#:-2-2-----0/5-5-55-5-00-0-0------------7-7-77-7-77-7-77-7-7-77-7-00-
Bridge (play it 2 times)
G :------------------|X3|------------------
D :------------------|X3|------------------
A :------------------|X3|------------------
C#:-02221-0-3-2-1-05-|X3|-0-2221-0-3-2-1---

Hit The Floor
Intro (begin at 0:08)
G :--------------------|X2|-----------------------------|X3|--------------------
D :--------------------|X2|-----------------------------|X3|--------------------
A :--------------------|X2|-----------------------------|X3|--------------------
E :--------------------|X2|---------------------5-5-5-4-|X3|--------------------
B :-2-6-2-3---3-3-2----|X2|-2-6-2-3---3-3-2---2---------|X3|-2-6-2-3---3-3-2----
No bass in the 1st part of the 1st verse
2nd part of the 1st verse (begin at 0:40)
G :--------------------|X4|
D :--------------------|X4|
A :--------------------|X4|
E :--------------------|X4|
B :-2-6-2-3---3-3-2----|X4|
Chorus
G :-----------------------------|X4|
D :-----------------------------|X4|
A :-----------------------------|X4|
E :---------------------5-5-5-4-|X4|
B :-2-6-2-3---3-3-2---2---------|X4|
2nd Verse (listen to the song to play with rythm)
G :------|X8|-----------------------|X4|
D :------|X8|-----------------------|X4|
A :------|X8|-----------------------|X4|
E :-0--0-|X8|---0-4-0-1---1-1-0--0--|X4|
B :-2--2-|X8|---2-6-2-3---3-3-2--2--|X4|
Bridge
G :----------------------------------|X2|
D :----------------------------------|X2|
A :----------------------------------|X2|
E :----------------------------------|X2|
B :-2--2--2--5-5~------2--2--2--3-3~-|X2|
No Bass in the part before the last chorus
Last Chorus
G :-----------------------------|X4|----------------------------------|X2|
D :-----------------------------|X4|----------------------------------|X2|
A :-----------------------------|X4|----------------------------------|X2|
E :---------------------5-5-5-4-|X4|-0--0--0--3-3~------0--0--0--1-1~-|X2|
B :-2-6-2-3---3-3-2---2---------|X4|-2--2--2--5-5~------2--2--2--3-3~-|X2|
Outro
G :-------------------------------------------------
D :-------------------------------------------------
A :-------------------------------------------------
E :---------------------5-5-5-4---------------------
B :-2-6-2-3---3-3-2---2-----------2-6-2-3---3-3-2---

Easier To Run
Intro & Pre Chorus
G :-------------------------
D :-------1------------1----
A :-1*-1-----2----2-4-----1-
C#:-------------------------
(play what is before the star just the 1st time)
Chorus
G :-----------------------------------------------------
D :-----------------------------------------------------
A :--------------2-2-2---------------------1-1-1--------
C#:-2-2-2---------------------0-0-0---------------------
Verses
G :---------------------------|X4
D :----8--9----9-8------------|X4
A :-6---------------9--8----9-|X4
C#:---------------------------|X4
Bridge
G :------------------------------------------------------
D :------------------------------------------------------
A :-2-2-2----------------------------------1-1-1---------
C#:--------------0-0-0--------2-2-2----------------------
G :------------------------------------------------------
D :------------------------------------------------------
A :-2-2-2------------------------------------------------
C#:--------------0-0-0--------0-12-0-----0/12-12-12------
Last Chorus
G :---------------------------------------------------|X4|-----------------------
D :---------------------------------------------------|X4|-----------------------
A :------------2-2-2---------------------1-1-1--------|X4|-8-8-8--------13-13-13-
C#:-2-2-2-------------------0-0-0---------------------|X4|-----------------------

Faint
Instrumental Parts
G :---------------------------------------------------------------
D :---------------------------------------------------------------
A :---------------------------------0-0-0-0-0-0-0-0---------------
C#:-0-0-0-0-0-0-0-0-3-3-3-3-3-3-3-3-----------------5-5-5-7---3-3-
Verses
G :----------------------------------------------------------------
D :----------------------------------------------------------------
A :--------------------------------------------------0-0----2-2----
C#:-0--------------0----------------0------------------------------
Chorus
G :---------------------------------------------------------------
D :---------------------------------------------------------------
A :---------------------------------0-0-0-0-0-0-0-0---------------
C#:-0-0-0-0-0-0-0-0-3-3-3-3-3-3-3-3-----------------5-5-5-7---3-3-
G :---------------------------------------------------------------------------------
D :---------------------------------------------------------------------------------
A :---------------------------------0-0-0-0-0-0-0-0---------------------------------
C#:-0-0-0-0-0-0-0-0-3-3-3-3-3-3-3-3-----------------5-5-5-7---3-3---3-3-3-3-3-3-3-3-
Bridge
G :-----------------------------|X4
D :-----------------------------|X4
A :-----------------------------|X4
C#:-0-7-3-2-3-2---00-7-3-2-3-2--|X4
Last Chorus
G :---------------------------------------------------------------|X3
D :---------------------------------------------------------------|X3
A :---------------------------------0-0-0-0-0-0-0-0---------------|X3
C#:-0-0-0-0-0-0-0-0-3-3-3-3-3-3-3-3-----------------5-5-5-7---3-3-|X3
G :---------------------------------------------------------------------------------
D :---------------------------------------------------------------------------------
A :---------------------------------0-0-0-0-0-0-0-0---------------------------------
C#:-0-0-0-0-0-0-0-0-3-3-3-3-3-3-3-3-----------------5-5-5-7---3-3---3-3-3-3-3-1-1-1-

Figure.09
Intro (play it 2 times)
G :----------*---------|X3|----------
D :----------*---------|X3|----------
A :----------*---------|X3|----------
C#:-0111-101-*-0----3--|X3|-0111-101-
(play what's before the stars only the first time at the beginning of the song)
Verses
G :-------------------------------------|X2|--------------------------------------|X2|
D :-------------------------------------|X2|--------------------------------------|X2|
A :-------------------------------------|X2|--------------------------------------|X2|
C#:-0--------0--------0--------0111-101-|X2|-0-------0-3-------0-3-------0111-101-|X2|
1st Chorus
G :--------------------------------------|X3|-------------------------------------
D :--------------------------------------|X3|-------------------------------------
A :---------00000------------------------|X3|---------00000-----------------------
C#:-00000-0-------7-33333-3-5~----7~-----|X3|-00000-0-------7-33333-3-7~----1~----
Instrumental Part
G :---------|X3|----------
D :---------|X3|----------
A :---------|X3|----------
C#:-0----3--|X3|-0111-101-
2nd Chorus
G :--------------------------------------|X3|--------------------------------
------------------
D :--------------------------------------|X3|--------------------------------
------------------
A :---------00000------------------------|X3|---------00000------------------
------------------
C#:-00000-0-------7-33333-3-5~----7~-----|X3|-00000-0-------7-33333-3-7~----1
~--1~--1~--1~--1~-
No Bass in the little plart just before the bridge
Bridge
G :------------|X8|
D :------------|X8|
A :------------|X8|
C#:-1-0----013-|X8|
Last Chorus
G :--------------------------------------|X3|-------------------------------------
D :--------------------------------------|X3|-------------------------------------
A :---------00000------------------------|X3|---------00000-----------------------
C#:-00000-0-------7-33333-3-5~----7~-----|X3|-00000-0-------7-33333-3-7~----7~----
Then The Outro (exactly like the 2nd chorus)
G :--------------------------------------|X3|-------------------------------------
-------------
D :--------------------------------------|X3|-------------------------------------
-------------
A :---------00000------------------------|X3|---------00000-----------------------
-------------
C#:-00000-0-------7-33333-3-5~----7~-----|X3|-00000-0-------7-33333-3-7~----1~--1~
--1~--1~--1~-

Breaking The Habit
Intro
G :-----------------------------------------|X2
D :-----------------------------------------|X2
A :-----------3~--------2~------------------|X2
C#:-3~--------------------------------------|X2
No Bass in the 1st verse and in the 1st pre chorus
Chorus
G :-----------------------------------------|X3|-----------------------------------
-----
D :-----------------------------------------|X3|-----------------------5~----------
-----
A :-----------3~--------2~------------------|X3|-3~--------5~--------3--------5~---
-----
C#:-3~--------------------------------------|X3|-----------------------------------
-----
2nd Verse (listen to the song for the rythm)
G :------------------------------|X4
D :------------------------------|X4
A :------------------------------|X4
C#:-3--3-3-1--1-1-3--3-3-3---6-6-|X4
2nd Pre Chorus
G :-----------------------------------------------------------------------------
D :-----------------------------------------------------------------------------
A :-3~--------0~--------3~------------2---3~--------0~--------3~----------------
C#:-----------------------------------------------------------------------------
Bridge
G :------------------------------------------|X2
D :------------------------------------------|X2
A :-------------------------------0~---------|X2
C#:-3~--------5~--------6~-------------------|X2
Last Chorus
G :-----------------------------------------|X3|---------------------|X2|------------
--------
D :-----------------------------------------|X3|---------------------|X2|---5~-------
--------
A :-----------3~--------2~------------------|X3|-3~--------5~--------|X2|-3--------5~
--------
C#:-3~--------------------------------------|X3|---------------------|X2|------------
-

From The Inside
Intro
G)---------------
D)---------------
A)---------------
E)3-5-7-5-3-5-7-5

Verse
----------
----------
----------
3-5-1-3-75

Chorus
-----------------
-----------------
-----------------
313-5-73-313-5-73

Fill
---------------
---------------
---------------
3333-65-3333-65
Outro
-----------------
-----------------
-----------------
33333-33333-33333

Nobody's Listening
Chorus & Outro
G:-------------------------------------
D:-------------------------------------
A:-------------------------------------
C:-2~-------3~------2~-------0~--3~----
2nd Verse (listen to the song to play it right)
G:---------------------------|X8
D:---------------------------|X8
A:---------------------------|X8
C:-2--2--2-------------------|X8

Numb
Intro (begin at 0:13)
G :-------------------------------------------------
D :-------------------------------------------------
A :-------------------------0-0-0-------------------
C#:-5-5-5-------1-1-1-------------------3-3-3-----7-
Verses
G :-------------------------------------|X2
D :-------------------------------------|X2
A :--------------------0----------------|X2
C#:-5--------1------------------3-------|X2
1st Pre Chorus
G :--------------------------------------------------
D :--------------------------------------------------
A :--------------------------------------------------
C#:-1------5-3------7-5------7-8---0----1------5-3---
Chorus (Play it 4 times for the last chorus)
G :-------------------------------------------------|X2
D :-------------------------------------------------|X2
A :-------------------------0-0-0-------------------|X2
C#:-5-5-5-------1-1-1-------------------3-3-3-----7-|X2
2nd Pre Chorus
G :-----------------------------------------|X2
D :-----------------------------------------|X2
A :-----------------------------------------|X2
C#:-1--------5-3--------7-5-------7-8---0---|X2
Bridge
G :---------------------------------------------------
D :---------------------------------------------------
A :---------------------------------------------------
C#:-1-1-1----1-1-3-3-3----3-3-5-5-5-7-7-7-8-8-8-0-0-0-
G :---------------------------------------------------------------------
D :---------------------------------------------------------------------
A :---------------------------------------------------------------------
C#:-1-1-1----1-1-3-3-3----3-3-0-0-0----0-0-0-0-0----0-0/12-12--10-10--8-


Пока комментариев нет